How to play Metallica's One Intro

From the And Justice for All release, Metallica's One is easily one of their most popular songs and the song that took Metallica to whole new level in popularity.

The intro to one is pretty straight forward and is a great riff for the guitarist that is just starting to become an intermediate level player. Note, the verse of the song is very similar to the intro but it is not the same.


Tab
E|------------------------------------------------------------------------|
B|------------------------------------------------------------------------|
G|---------------------------------------------------------------------0--|
D|----4-----0--(0)-----4-----0--(0)------4-----0--(0)-----4-----0--(0)----|
A|-2-----2----------------------------2-----2-----------------------------|
E|------------------3-----3----------------------------3-----3------------|


E|--------------------------------------------------------------------|
B|--------------------------------------------------------------------|
G|--------------------------------------------------------------------|
D|----4------0--(0)------4-----0--(0)------4-----0--(0)---------------|
A|-2-----2------------0-----0--------------------------------2-----2--|
E|--------------------------------------3-----3-----------0-----2-----|
Watch One Intro Video

Watching the video will give you an idea of what fingers to use where, there are times where you may find it easier to incorporate using your pinkie finger to play fret 4 on the D string. However, if using your 3rd finger is more comfortable then that is okay too.

The intro above is repeated several times during the opening guitar solo, the only difference is during the first time around the open G note is played a bit longer.


Return to Guitar Songs
 
     

replica watch replica watches uk replica rolex watches watches replica hublot replica panerai replica rolex replica watches tag heuer replica best replica watches fake rolex watches patek philippe replica replica breitling omega replica rolex replicas watch replicas audemars piguet replica breitling replica watches fake rolex watches for sale iwc replica cartier replica cheap replica watches fake watch omega replica watches replica breitling watches replica cartier watches replica omega replicas watches cartier replica watches fake breitling watches panerai replica watches replica cartier replica panerai replica patek philippe replica swiss watches replica tag heuer replica watches paypal breitling navitimer replica copy watches hublot replica watches imitation watches replica hublot replica omega watches replica rolex watch replica watches for sale replica watches swiss rolex fake swiss replica watch tag heuer replica watches ultimate replica watches replicas breitling replika bvlgari replica iwc cousteau divers, iwc catalogue, audemars piguet skeleton, panerai pam 312, Replica Rolex Watches for sale swiss copy rolex watches watches iwc copy online watch shop watch old ring bulgari rolex tag price tag heuer colt breitling sale tag heuer fake bulgari watch omega seamaster models omega watches dubai cartier gold watches breitling aerospace avantage best replica watch Fake Watches for sale, Replica Rolex Watches for sale, Rolex submariner Watches, Replica Rolex Watches for sale  Replica Handbags.