How to play Pink Floyd - Wish You Were Here Intro

Wish You Were Here A classic Pink Floyd song from the album Wish You Were Here. Overall, this song is fairly easy, I listed it as an intermediate song since it require some creative hand technique.

I've broken down the Intro into two parts, for the most part they are very similar, it's just a small change in part 2. By the way, most of this song is played on a 12 string guitar, but it still sounds good with a 6 string guitar.


Intro - Part 1

Tab
E|-----------------3--3--3--3---------------3--3--3--3--|
B|-----------------3--3--3--3---------------3--3--3--3--|
G|-----------------0--0--0--0----0----------0--0--0--0--|
D|-----------0-h-2-------------2----2--0----------------|
A|-----0-h-2--------------------------------------------|
E|--3---------------------------------------------------|  X 2  
View Part 1 Intro Video

The easiest way to play this is to simply place your fingers in a G chord position with a couple of differences. One difference, your 1st finger is used as the hammer on so it's not played as you normally would. The other difference is we add our 3rd finger to the third fret of the second string.

Important Notes: It's a bit tricky to identify how many of the 0-3-3 chords are being played, so listen carefully to the song to get the timing. Also note, there are few addition 0-3-3 chords between part one and part two.




Intro - Part 2

Tab
E|-----------------3--3--3--3---------------3--3--3--3----|   |---------|
B|-----------------3--3--3--3---------------3--3--3--3----|   |---------|
G|-----------------0--0--0--0---------------0--0--0--0----|   |---------|
D|-----------0-h-2-------------2--0-----------------------|   |---------|
A|-----0-h-2-------------------------2--0-----------------|   |-0-2-0---|
E|--3-----------------------------------------------------|X 2|- -----3-|
View Part 2 Intro

This is just like part one, except between the chords is a different descent of 2-0 on the 4th and 5th string. Again, listen to the song to get the timing on the 0-3-3 chords.



Return to Guitar Songs
 
     

replica watch replica watches uk replica rolex watches watches replica hublot replica panerai replica rolex replica watches tag heuer replica best replica watches fake rolex watches patek philippe replica replica breitling omega replica rolex replicas watch replicas audemars piguet replica breitling replica watches fake rolex watches for sale iwc replica cartier replica cheap replica watches fake watch omega replica watches replica breitling watches replica cartier watches replica omega replicas watches cartier replica watches fake breitling watches panerai replica watches replica cartier replica panerai replica patek philippe replica swiss watches replica tag heuer replica watches paypal breitling navitimer replica copy watches hublot replica watches imitation watches replica hublot replica omega watches replica rolex watch replica watches for sale replica watches swiss rolex fake swiss replica watch tag heuer replica watches ultimate replica watches replicas breitling replika bvlgari replica iwc cousteau divers, iwc catalogue, audemars piguet skeleton, panerai pam 312, Replica Rolex Watches for sale swiss copy rolex watches watches iwc copy online watch shop watch old ring bulgari rolex tag price tag heuer colt breitling sale tag heuer fake bulgari watch omega seamaster models omega watches dubai cartier gold watches breitling aerospace avantage best replica watch Fake Watches for sale, Replica Rolex Watches for sale, Rolex submariner Watches, Replica Rolex Watches for sale  Replica Handbags.