How to play Phish - Axilla

This is one my favorite riffs to play, the intro is straight forward but the verse is quite tricky. The song Axilla is from the release Hoist. The Axilla verse takes pratice, and challanges all of your fingers but once you master it, it's a fun riff to play.


Axilla Intro

Tab Video
E|-----6-6----6-6----6---------------|
B|-----6-6----6-6----6---------------|
G|--8^-----8^-----8^-----6--6--8--8--|
D|-----------------------6--6--8--8--|
A|-----------------------------------|
E|-----------------------------------|
View Axilla Intro Video

The intro is a quick riff, bend the 8th note up and quickly release to play the next two notes.


Axilla Verse

Tab
E|------------------------------|------------------------|
B|------------------------------|------------------------|
G|----------6^------------------|----------6^------------|
D|------8------8---6-8-----6----|------8------8---6-8----|
A|----8---8------8-------8------|----8---8------8--------|
E|--6------------------9-----9--|--6------------------9^-|
View Axilla Verse Video - Normal
View Axilla Verse Video - Slow

The verse is a tricky riff, it requires quick movement of your fingers and for you to really stretch your fingers. It challenges your pinkie but this is a good way to get that pinkie finger strengthened!


Return to Guitar Songs
 
     

replica watch replica watches uk replica rolex watches watches replica hublot replica panerai replica rolex replica watches tag heuer replica best replica watches fake rolex watches patek philippe replica replica breitling omega replica rolex replicas watch replicas audemars piguet replica breitling replica watches fake rolex watches for sale iwc replica cartier replica cheap replica watches fake watch omega replica watches replica breitling watches replica cartier watches replica omega replicas watches cartier replica watches fake breitling watches panerai replica watches replica cartier replica panerai replica patek philippe replica swiss watches replica tag heuer replica watches paypal breitling navitimer replica copy watches hublot replica watches imitation watches replica hublot replica omega watches replica rolex watch replica watches for sale replica watches swiss rolex fake swiss replica watch tag heuer replica watches ultimate replica watches replicas breitling replika bvlgari replica iwc cousteau divers, iwc catalogue, audemars piguet skeleton, panerai pam 312, Replica Rolex Watches for sale swiss copy rolex watches watches iwc copy online watch shop watch old ring bulgari rolex tag price tag heuer colt breitling sale tag heuer fake bulgari watch omega seamaster models omega watches dubai cartier gold watches breitling aerospace avantage best replica watch Fake Watches for sale, Replica Rolex Watches for sale, Rolex submariner Watches, Replica Rolex Watches for sale  Replica Handbags.