Smells Like Teen Spirit Guitar Solo

Certainly one of the most influential songs of all time, Nirvana's Smells Like Teen Spirit features a brief easy guitar solo that is great for beginner guitar players. The solo mimics the verse and fits in and flows well with the song.

I feel the solo features some slides that improve the flow of the actual solo, however, some may debate that as I have seen many transcriptions that do not have the slides.


Tab
Part 1 - Play Twice
E|----------------------------------------------------------|
B|----------------------------------------------------------|
G|------8--10-\8-----8--8br--6--5--6--5---------------------|
D|--10------------6----------------------8--6--8--8br--6--5-|
A|----------------------------------------------------------|
E|----------------------------------------------------------| X 2

Part 2
E|----------------------------------------------------------|
B|----------------------------------------------------------|
G|----------------------------------------------------------|
D|--6-5-6-5-6-5-6-5-----6-5-6-5-6-5-6-5---------------------|
A|------------------8-------------------8-------------------|
E|----------------------------------------------------------| X 2

Smells Like Teen Spirit Guitar Solo Video

While you can get away with performing this solo without your pinkie, I recommend you that you try to use it as it's good practice for beginners. The pinkie can help make playing the 8th fret notes that are played when transitioning from the G to D strings and the D to A strings. Remember, however, to use your index finger to bend the 8th fret notes.

If you are wondering how I got that sound, I use a Roland JC-120 amplifier which has a built in vibrato switch, through in a RAT pedal and your done!



Return to Guitar Songs
 
     

replica watch replica watches uk replica rolex watches watches replica hublot replica panerai replica rolex replica watches tag heuer replica best replica watches fake rolex watches patek philippe replica replica breitling omega replica rolex replicas watch replicas audemars piguet replica breitling replica watches fake rolex watches for sale iwc replica cartier replica cheap replica watches fake watch omega replica watches replica breitling watches replica cartier watches replica omega replicas watches cartier replica watches fake breitling watches panerai replica watches replica cartier replica panerai replica patek philippe replica swiss watches replica tag heuer replica watches paypal breitling navitimer replica copy watches hublot replica watches imitation watches replica hublot replica omega watches replica rolex watch replica watches for sale replica watches swiss rolex fake swiss replica watch tag heuer replica watches ultimate replica watches replicas breitling replika bvlgari replica iwc cousteau divers, iwc catalogue, audemars piguet skeleton, panerai pam 312, Replica Rolex Watches for sale swiss copy rolex watches watches iwc copy online watch shop watch old ring bulgari rolex tag price tag heuer colt breitling sale tag heuer fake bulgari watch omega seamaster models omega watches dubai cartier gold watches breitling aerospace avantage best replica watch Fake Watches for sale, Replica Rolex Watches for sale, Rolex submariner Watches, Replica Rolex Watches for sale  Replica Handbags.